ISO-10303-21;
HEADER;
FILE_DESCRIPTION (( 'STEP AP214' ),
    '1' );
FILE_NAME ('CTSC-002862.STEP',
    '2025-10-28T11:59:31',
    ( '' ),
    ( '' ),
    'SwSTEP 2.0',
    'SolidWorks 2023',
    '' );
FILE_SCHEMA (( 'AUTOMOTIVE_DESIGN' ));
ENDSEC;

DATA;
#1 = EDGE_LOOP ( 'NONE', ( #19 ) ) ;
#2 = DIRECTION ( 'NONE',  ( 0.000000000000000000, 0.000000000000000000, 1.000000000000000000 ) ) ;
#3 = FACE_OUTER_BOUND ( 'NONE', #332, .T. ) ;
#4 = FILL_AREA_STYLE_COLOUR ( '', #80 ) ;
#5 = DIRECTION ( 'NONE',  ( 0.000000000000000000, 0.000000000000000000, 1.000000000000000000 ) ) ;
#6 = FACE_OUTER_BOUND ( 'NONE', #281, .T. ) ;
#7 = AXIS2_PLACEMENT_3D ( 'NONE', #137, #252, #2 ) ;
#8 = CARTESIAN_POINT ( 'NONE',  ( 0.7300904007046185029, 0.9724168242848093557, 0.2452782151626167750 ) ) ;
#9 = FACE_OUTER_BOUND ( 'NONE', #70, .T. ) ;
#10 = FACE_BOUND ( 'NONE', #23, .T. ) ;
#11 = CARTESIAN_POINT ( 'NONE',  ( 0.7300904007046186139, 3.433032461604126340, 0.6262782151626169469 ) ) ;
#12 = AXIS2_PLACEMENT_3D ( 'NONE', #355, #238, #93 ) ;
#13 = DIRECTION ( 'NONE',  ( 0.000000000000000000, 0.000000000000000000, 1.000000000000000000 ) ) ;
#14 = CARTESIAN_POINT ( 'NONE',  ( 0.7300904007046186139, 0.5034168242848091612, 0.1952782151626167584 ) ) ;
#15 = COLOUR_RGB ( '',0.7921568627450980005, 0.8196078431372548767, 0.9333333333333333481 ) ;
#16 = DIMENSIONAL_EXPONENTS ( 1.000000000000000000, 0.000000000000000000, 0.000000000000000000, 0.000000000000000000, 0.000000000000000000, 0.000000000000000000, 0.000000000000000000 ) ;
#17 = VERTEX_POINT ( 'NONE', #125 ) ;
#18 = ADVANCED_FACE ( 'NONE', ( #330, #68 ), #307, .F. ) ;
#19 = ORIENTED_EDGE ( 'NONE', *, *, #149, .T. ) ;
#20 = PRESENTATION_LAYER_ASSIGNMENT (  '', '', ( #127 ) ) ;
#21 = EDGE_LOOP ( 'NONE', ( #72 ) ) ;
#22 = ORIENTED_EDGE ( 'NONE', *, *, #75, .T. ) ;
#23 = EDGE_LOOP ( 'NONE', ( #219 ) ) ;
#24 = CIRCLE ( 'NONE', #42, 0.4310000000000003273 ) ;
#25 = AXIS2_PLACEMENT_3D ( 'NONE', #351, #283, #119 ) ;
#26 = EDGE_LOOP ( 'NONE', ( #104 ) ) ;
#27 = CARTESIAN_POINT ( 'NONE',  ( 0.7300904007046186139, 1.947546916269040862, 0.6262782151626170579 ) ) ;
#28 = CYLINDRICAL_SURFACE ( 'NONE', #157, 0.5860000000000000764 ) ;
#29 = DIRECTION ( 'NONE',  ( 0.000000000000000000, 0.000000000000000000, 1.000000000000000000 ) ) ;
#30 =( CONVERSION_BASED_UNIT ( 'INCH', #173 ) LENGTH_UNIT ( ) NAMED_UNIT ( #124 ) );
#31 = DIRECTION ( 'NONE',  ( 0.000000000000000000, 0.000000000000000000, 1.000000000000000000 ) ) ;
#32 = EDGE_CURVE ( 'NONE', #171, #171, #240, .T. ) ;
#33 = CARTESIAN_POINT ( 'NONE',  ( 0.7300904007046186139, 0.8784168242848092722, 0.03527821516261661627 ) ) ;
#34 = MANIFOLD_SOLID_BREP ( 'SEAL-005155-1-solid1', #302 ) ;
#35 = MANIFOLD_SOLID_BREP ( 'MACH-004510-1-solid1', #243 ) ;
#36 =( NAMED_UNIT ( * ) SI_UNIT ( $, .STERADIAN. ) SOLID_ANGLE_UNIT ( ) );
#37 = DIRECTION ( 'NONE',  ( 0.000000000000000000, 0.000000000000000000, 1.000000000000000000 ) ) ;
#38 = AXIS2_PLACEMENT_3D ( 'NONE', #280, #115, #167 ) ;
#39 = PRESENTATION_LAYER_ASSIGNMENT (  '', '', ( #220 ) ) ;
#40 = DIRECTION ( 'NONE',  ( -0.000000000000000000, 1.000000000000000000, -0.000000000000000000 ) ) ;
#41 = CARTESIAN_POINT ( 'NONE',  ( 0.7300904007046186139, 0.5034168242848091612, 1.212278215162617245 ) ) ;
#42 = AXIS2_PLACEMENT_3D ( 'NONE', #294, #265, #337 ) ;
#43 = AXIS2_PLACEMENT_3D ( 'NONE', #8, #231, #113 ) ;
#44 = ORIENTED_EDGE ( 'NONE', *, *, #64, .T. ) ;
#45 = ADVANCED_FACE ( 'NONE', ( #329, #3 ), #55, .T. ) ;
#46 = EDGE_LOOP ( 'NONE', ( #51 ) ) ;
#47 = AXIS2_PLACEMENT_3D ( 'NONE', #260, #111, #169 ) ;
#48 = ORIENTED_EDGE ( 'NONE', *, *, #174, .T. ) ;
#49 = EDGE_LOOP ( 'NONE', ( #130 ) ) ;
#50 = DIRECTION ( 'NONE',  ( 0.000000000000000000, -1.000000000000000000, 0.000000000000000000 ) ) ;
#51 = ORIENTED_EDGE ( 'NONE', *, *, #132, .T. ) ;
#52 =( NAMED_UNIT ( * ) SI_UNIT ( $, .STERADIAN. ) SOLID_ANGLE_UNIT ( ) );
#53 = FACE_OUTER_BOUND ( 'NONE', #309, .T. ) ;
#54 = SURFACE_STYLE_FILL_AREA ( #258 ) ;
#55 = CYLINDRICAL_SURFACE ( 'NONE', #348, 0.5860000000000002984 ) ;
#56 = CARTESIAN_POINT ( 'NONE',  ( 0.7300904007046186139, 0.4094168242848091332, 0.04027821516261690521 ) ) ;
#57 = UNCERTAINTY_MEASURE_WITH_UNIT (LENGTH_MEASURE( 1.000000000000000082E-05 ), #30, 'distance_accuracy_value', 'NONE');
#58 = CONICAL_SURFACE ( 'NONE', #47, 0.3810000000000002274, 0.7853981633974503884 ) ;
#59 = DIRECTION ( 'NONE',  ( -0.000000000000000000, 1.000000000000000000, -0.000000000000000000 ) ) ;
#60 = PLANE ( 'NONE',  #182 ) ;
#61 = CLOSED_SHELL ( 'NONE', ( #324, #164, #45, #335, #188 ) ) ;
#62 = APPLICATION_PROTOCOL_DEFINITION ( 'draft international standard', 'automotive_design', 1998, #271 ) ;
#63 = LENGTH_MEASURE_WITH_UNIT ( LENGTH_MEASURE( 0.02539999999999999897 ), #120 );
#64 = EDGE_CURVE ( 'NONE', #229, #229, #151, .T. ) ;
#65 = VERTEX_POINT ( 'NONE', #96 ) ;
#66 = DIRECTION ( 'NONE',  ( 0.000000000000000000, 0.000000000000000000, -1.000000000000000000 ) ) ;
#67 = SURFACE_STYLE_FILL_AREA ( #245 ) ;
#68 = FACE_BOUND ( 'NONE', #105, .T. ) ;
#69 = DIRECTION ( 'NONE',  ( 0.000000000000000000, 0.000000000000000000, -1.000000000000000000 ) ) ;
#70 = EDGE_LOOP ( 'NONE', ( #362 ) ) ;
#71 = ORIENTED_EDGE ( 'NONE', *, *, #122, .F. ) ;
#72 = ORIENTED_EDGE ( 'NONE', *, *, #122, .T. ) ;
#73 = FACE_OUTER_BOUND ( 'NONE', #128, .T. ) ;
#74 = EDGE_LOOP ( 'NONE', ( #253 ) ) ;
#75 = EDGE_CURVE ( 'NONE', #85, #85, #267, .T. ) ;
#76 = LENGTH_MEASURE_WITH_UNIT ( LENGTH_MEASURE( 0.02539999999999999897 ), #184 );
#77 = FACE_OUTER_BOUND ( 'NONE', #336, .T. ) ;
#78 = CARTESIAN_POINT ( 'NONE',  ( 0.7300904007046186139, 0.4534168242848091723, 0.6262782151626170579 ) ) ;
#79 = FACE_BOUND ( 'NONE', #165, .T. ) ;
#80 = COLOUR_RGB ( '',0.7921568627450980005, 0.8196078431372548767, 0.9333333333333333481 ) ;
#81 = DIRECTION ( 'NONE',  ( 0.000000000000000000, 0.000000000000000000, 1.000000000000000000 ) ) ;
#82 =( GEOMETRIC_REPRESENTATION_CONTEXT ( 3 ) GLOBAL_UNCERTAINTY_ASSIGNED_CONTEXT ( ( #290 ) ) GLOBAL_UNIT_ASSIGNED_CONTEXT ( ( #327, #301, #298 ) ) REPRESENTATION_CONTEXT ( 'NONE', 'WORKASPACE' ) );
#83 = CARTESIAN_POINT ( 'NONE',  ( 0.7300904007046186139, 0.5034168242848091612, 0.6262782151626170579 ) ) ;
#84 = EDGE_CURVE ( 'NONE', #291, #291, #134, .T. ) ;
#85 = VERTEX_POINT ( 'NONE', #86 ) ;
#86 = CARTESIAN_POINT ( 'NONE',  ( 0.7300904007046186139, 0.4094168242848090777, 1.007278215162617174 ) ) ;
#87 = FACE_OUTER_BOUND ( 'NONE', #361, .T. ) ;
#88 = CIRCLE ( 'NONE', #7, 0.3800000000000003375 ) ;
#89 = CYLINDRICAL_SURFACE ( 'NONE', #328, 0.3810000000000001164 ) ;
#90 = CARTESIAN_POINT ( 'NONE',  ( 0.7300904007046185029, 0.9224168242848093113, 0.2452782151626167750 ) ) ;
#91 = FACE_OUTER_BOUND ( 'NONE', #217, .T. ) ;
#92 = CARTESIAN_POINT ( 'NONE',  ( 0.7300904007046186139, 0.5034168242848091612, 1.006278215162617284 ) ) ;
#93 = DIRECTION ( 'NONE',  ( 0.000000000000000000, 0.000000000000000000, 1.000000000000000000 ) ) ;
#94 = DIRECTION ( 'NONE',  ( 0.000000000000000000, 0.000000000000000000, 1.000000000000000000 ) ) ;
#95 = DIRECTION ( 'NONE',  ( -0.000000000000000000, 1.000000000000000000, -0.000000000000000000 ) ) ;
#96 = CARTESIAN_POINT ( 'NONE',  ( 0.7300904007046185029, 0.8784168242848092722, 1.007278215162617174 ) ) ;
#97 = DIRECTION ( 'NONE',  ( -0.000000000000000000, 1.000000000000000000, -0.000000000000000000 ) ) ;
#98 = CIRCLE ( 'NONE', #38, 0.3800000000000003375 ) ;
#99 = EDGE_LOOP ( 'NONE', ( #190 ) ) ;
#100 = AXIS2_PLACEMENT_3D ( 'NONE', #322, #94, #266 ) ;
#101 =( GEOMETRIC_REPRESENTATION_CONTEXT ( 3 ) GLOBAL_UNCERTAINTY_ASSIGNED_CONTEXT ( ( #57 ) ) GLOBAL_UNIT_ASSIGNED_CONTEXT ( ( #30, #256, #36 ) ) REPRESENTATION_CONTEXT ( 'NONE', 'WORKASPACE' ) );
#102 = LENGTH_MEASURE_WITH_UNIT ( LENGTH_MEASURE( 0.02539999999999999897 ), #242 );
#103 = EDGE_LOOP ( 'NONE', ( #221 ) ) ;
#104 = ORIENTED_EDGE ( 'NONE', *, *, #343, .F. ) ;
#105 = EDGE_LOOP ( 'NONE', ( #48 ) ) ;
#106 = AXIS2_PLACEMENT_3D ( 'NONE', #251, #339, #227 ) ;
#107 = AXIS2_PLACEMENT_3D ( 'NONE', #83, #141, #314 ) ;
#108 = ORIENTED_EDGE ( 'NONE', *, *, #241, .F. ) ;
#109 = FACE_OUTER_BOUND ( 'NONE', #49, .T. ) ;
#110 = DIRECTION ( 'NONE',  ( 0.000000000000000000, 1.000000000000000000, 0.000000000000000000 ) ) ;
#111 = DIRECTION ( 'NONE',  ( 0.000000000000000000, 1.000000000000000000, 0.000000000000000000 ) ) ;
#112 = PRODUCT_DEFINITION ( 'UNKNOWN', '', #162, #146 ) ;
#113 = DIRECTION ( 'NONE',  ( 0.000000000000000000, -0.000000000000000000, -1.000000000000000000 ) ) ;
#114 = FACE_OUTER_BOUND ( 'NONE', #249, .T. ) ;
#115 = DIRECTION ( 'NONE',  ( -0.000000000000000000, 1.000000000000000000, -0.000000000000000000 ) ) ;
#116 = FACE_BOUND ( 'NONE', #311, .T. ) ;
#117 = PLANE ( 'NONE',  #359 ) ;
#118 =( GEOMETRIC_REPRESENTATION_CONTEXT ( 3 ) GLOBAL_UNCERTAINTY_ASSIGNED_CONTEXT ( ( #352 ) ) GLOBAL_UNIT_ASSIGNED_CONTEXT ( ( #126, #223, #52 ) ) REPRESENTATION_CONTEXT ( 'NONE', 'WORKASPACE' ) );
#119 = DIRECTION ( 'NONE',  ( 0.000000000000000000, 0.000000000000000000, 1.000000000000000000 ) ) ;
#120 =( LENGTH_UNIT ( ) NAMED_UNIT ( * ) SI_UNIT ( $, .METRE. ) );
#121 = FILL_AREA_STYLE_COLOUR ( '', #197 ) ;
#122 = EDGE_CURVE ( 'NONE', #320, #320, #316, .T. ) ;
#123 = MECHANICAL_DESIGN_GEOMETRIC_PRESENTATION_REPRESENTATION (  '', ( #156 ), #118 ) ;
#124 = DIMENSIONAL_EXPONENTS ( 1.000000000000000000, 0.000000000000000000, 0.000000000000000000, 0.000000000000000000, 0.000000000000000000, 0.000000000000000000, 0.000000000000000000 ) ;
#125 = CARTESIAN_POINT ( 'NONE',  ( 0.7300904007046186139, 0.8784168242848093833, 1.217278215162617361 ) ) ;
#126 =( CONVERSION_BASED_UNIT ( 'INCH', #102 ) LENGTH_UNIT ( ) NAMED_UNIT ( #305 ) );
#127 = STYLED_ITEM ( 'NONE', ( #254 ), #34 ) ;
#128 = EDGE_LOOP ( 'NONE', ( #310 ) ) ;
#129 = AXIS2_PLACEMENT_3D ( 'NONE', #33, #150, #350 ) ;
#130 = ORIENTED_EDGE ( 'NONE', *, *, #149, .F. ) ;
#131 = ORIENTED_EDGE ( 'NONE', *, *, #343, .T. ) ;
#132 = EDGE_CURVE ( 'NONE', #354, #354, #202, .T. ) ;
#133 = EDGE_LOOP ( 'NONE', ( #185 ) ) ;
#134 = CIRCLE ( 'NONE', #356, 0.5910000000000003029 ) ;
#135 = MECHANICAL_DESIGN_GEOMETRIC_PRESENTATION_REPRESENTATION (  '', ( #220 ), #101 ) ;
#136 = DIRECTION ( 'NONE',  ( 0.000000000000000000, 0.000000000000000000, 1.000000000000000000 ) ) ;
#137 = CARTESIAN_POINT ( 'NONE',  ( 0.7300904007046186139, 0.8784168242848093833, 0.6262782151626169469 ) ) ;
#138 = ORIENTED_EDGE ( 'NONE', *, *, #84, .F. ) ;
#139 = CARTESIAN_POINT ( 'NONE',  ( 0.7300904007046185029, 0.9724168242848093557, 0.6262782151626169469 ) ) ;
#140 = EDGE_CURVE ( 'NONE', #65, #65, #215, .T. ) ;
#141 = DIRECTION ( 'NONE',  ( -0.000000000000000000, 1.000000000000000000, -0.000000000000000000 ) ) ;
#142 = PRESENTATION_STYLE_ASSIGNMENT (( #277 ) ) ;
#143 = CARTESIAN_POINT ( 'NONE',  ( 0.7300904007046186139, 0.8784168242848093833, 0.6262782151626169469 ) ) ;
#144 = AXIS2_PLACEMENT_3D ( 'NONE', #139, #97, #136 ) ;
#145 = FACE_OUTER_BOUND ( 'NONE', #338, .T. ) ;
#146 = PRODUCT_DEFINITION_CONTEXT ( 'detailed design', #271, 'design' ) ;
#147 = PLANE ( 'NONE',  #43 ) ;
#148 = FACE_OUTER_BOUND ( 'NONE', #189, .T. ) ;
#149 = EDGE_CURVE ( 'NONE', #325, #325, #24, .T. ) ;
#150 = DIRECTION ( 'NONE',  ( 0.000000000000000000, -1.000000000000000000, 0.000000000000000000 ) ) ;
#151 = CIRCLE ( 'NONE', #144, 0.5860000000000000764 ) ;
#152 = FACE_BOUND ( 'NONE', #99, .T. ) ;
#153 = DIRECTION ( 'NONE',  ( 0.000000000000000000, 0.000000000000000000, 1.000000000000000000 ) ) ;
#154 = ADVANCED_FACE ( 'NONE', ( #87, #73 ), #191, .T. ) ;
#155 = CARTESIAN_POINT ( 'NONE',  ( 0.7300904007046185029, 0.9724168242848093557, 0.1952782151626166196 ) ) ;
#156 = STYLED_ITEM ( 'NONE', ( #142 ), #35 ) ;
#157 = AXIS2_PLACEMENT_3D ( 'NONE', #347, #59, #175 ) ;
#158 = SURFACE_STYLE_USAGE ( .BOTH. , #360 ) ;
#159 = DIRECTION ( 'NONE',  ( -0.000000000000000000, 1.000000000000000000, -0.000000000000000000 ) ) ;
#160 = CARTESIAN_POINT ( 'NONE',  ( 0.7300904007046186139, 0.5034168242848092722, 0.2462782151626166371 ) ) ;
#161 = EDGE_LOOP ( 'NONE', ( #138 ) ) ;
#162 = PRODUCT_DEFINITION_FORMATION_WITH_SPECIFIED_SOURCE ( 'ANY', '', #247, .NOT_KNOWN. ) ;
#163 = EDGE_LOOP ( 'NONE', ( #218 ) ) ;
#164 = ADVANCED_FACE ( 'NONE', ( #321, #177 ), #117, .F. ) ;
#165 = EDGE_LOOP ( 'NONE', ( #22 ) ) ;
#166 =( NAMED_UNIT ( * ) PLANE_ANGLE_UNIT ( ) SI_UNIT ( $, .RADIAN. ) );
#167 = DIRECTION ( 'NONE',  ( 0.000000000000000000, 0.000000000000000000, 1.000000000000000000 ) ) ;
#168 = ORIENTED_EDGE ( 'NONE', *, *, #132, .F. ) ;
#169 = DIRECTION ( 'NONE',  ( 0.000000000000000000, 0.000000000000000000, 1.000000000000000000 ) ) ;
#170 = SURFACE_SIDE_STYLE ('',( #54 ) ) ;
#171 = VERTEX_POINT ( 'NONE', #346 ) ;
#172 =( GEOMETRIC_REPRESENTATION_CONTEXT ( 3 ) GLOBAL_UNCERTAINTY_ASSIGNED_CONTEXT ( ( #308 ) ) GLOBAL_UNIT_ASSIGNED_CONTEXT ( ( #285, #166, #269 ) ) REPRESENTATION_CONTEXT ( 'NONE', 'WORKASPACE' ) );
#173 = LENGTH_MEASURE_WITH_UNIT ( LENGTH_MEASURE( 0.02539999999999999897 ), #293 );
#174 = EDGE_CURVE ( 'NONE', #207, #207, #98, .T. ) ;
#175 = DIRECTION ( 'NONE',  ( 0.000000000000000000, 0.000000000000000000, 1.000000000000000000 ) ) ;
#176 = CARTESIAN_POINT ( 'NONE',  ( 0.7300904007046186139, 1.947546916269040862, 0.6262782151626170579 ) ) ;
#177 = FACE_OUTER_BOUND ( 'NONE', #192, .T. ) ;
#178 = FACE_OUTER_BOUND ( 'NONE', #21, .T. ) ;
#179 = EDGE_CURVE ( 'NONE', #357, #357, #88, .T. ) ;
#180 = SHAPE_DEFINITION_REPRESENTATION ( #274, #206 ) ;
#181 = CARTESIAN_POINT ( 'NONE',  ( 0.7300904007046185029, 0.8784168242848092722, 1.212278215162617023 ) ) ;
#182 = AXIS2_PLACEMENT_3D ( 'NONE', #340, #318, #236 ) ;
#183 = VERTEX_POINT ( 'NONE', #41 ) ;
#184 =( LENGTH_UNIT ( ) NAMED_UNIT ( * ) SI_UNIT ( $, .METRE. ) );
#185 = ORIENTED_EDGE ( 'NONE', *, *, #179, .T. ) ;
#186 = ORIENTED_EDGE ( 'NONE', *, *, #174, .F. ) ;
#187 = AXIS2_PLACEMENT_3D ( 'NONE', #326, #358, #66 ) ;
#188 = ADVANCED_FACE ( 'NONE', ( #109, #152 ), #262, .F. ) ;
#189 = EDGE_LOOP ( 'NONE', ( #108 ) ) ;
#190 = ORIENTED_EDGE ( 'NONE', *, *, #32, .F. ) ;
#191 = CYLINDRICAL_SURFACE ( 'NONE', #312, 0.5910000000000003029 ) ;
#192 = EDGE_LOOP ( 'NONE', ( #131 ) ) ;
#193 = FILL_AREA_STYLE ('',( #4 ) ) ;
#194 = CARTESIAN_POINT ( 'NONE',  ( 0.7300904007046185029, 2.416546916269040945, 0.6262782151626169469 ) ) ;
#195 = DIRECTION ( 'NONE',  ( 0.000000000000000000, 0.000000000000000000, -1.000000000000000000 ) ) ;
#196 = MECHANICAL_DESIGN_GEOMETRIC_PRESENTATION_REPRESENTATION (  '', ( #127 ), #172 ) ;
#197 = COLOUR_RGB ( '',0.7921568627450980005, 0.8196078431372548767, 0.9333333333333333481 ) ;
#198 = PLANE ( 'NONE',  #244 ) ;
#199 = DIRECTION ( 'NONE',  ( -0.000000000000000000, 1.000000000000000000, 0.000000000000000000 ) ) ;
#200 = SURFACE_STYLE_USAGE ( .BOTH. , #170 ) ;
#201 = ADVANCED_FACE ( 'NONE', ( #148, #203 ), #60, .F. ) ;
#202 = CIRCLE ( 'NONE', #187, 0.4310000000000003273 ) ;
#203 = FACE_BOUND ( 'NONE', #273, .T. ) ;
#204 = CARTESIAN_POINT ( 'NONE',  ( 0.7300904007046186139, 0.5034168242848091612, 1.217278215162617361 ) ) ;
#205 = DIRECTION ( 'NONE',  ( -0.000000000000000000, 1.000000000000000000, -0.000000000000000000 ) ) ;
#206 = ADVANCED_BREP_SHAPE_REPRESENTATION ( 'CTSC-002862', ( #34, #35, #279, #100 ), #82 ) ;
#207 = VERTEX_POINT ( 'NONE', #92 ) ;
#208 = FACE_OUTER_BOUND ( 'NONE', #133, .T. ) ;
#209 = PRODUCT_RELATED_PRODUCT_CATEGORY ( 'part', '', ( #247 ) ) ;
#210 = PRESENTATION_LAYER_ASSIGNMENT (  '', '', ( #156 ) ) ;
#211 = CYLINDRICAL_SURFACE ( 'NONE', #12, 0.3800000000000003375 ) ;
#212 = CARTESIAN_POINT ( 'NONE',  ( 0.7300904007046186139, 0.4094168242848090777, 1.212278215162617245 ) ) ;
#213 = DIRECTION ( 'NONE',  ( 0.000000000000000000, 1.000000000000000000, 0.000000000000000000 ) ) ;
#214 = APPLICATION_PROTOCOL_DEFINITION ( 'draft international standard', 'automotive_design', 1998, #222 ) ;
#215 = CIRCLE ( 'NONE', #234, 0.3810000000000002274 ) ;
#216 = ORIENTED_EDGE ( 'NONE', *, *, #140, .T. ) ;
#217 = EDGE_LOOP ( 'NONE', ( #186 ) ) ;
#218 = ORIENTED_EDGE ( 'NONE', *, *, #349, .T. ) ;
#219 = ORIENTED_EDGE ( 'NONE', *, *, #179, .F. ) ;
#220 = STYLED_ITEM ( 'NONE', ( #289 ), #279 ) ;
#221 = ORIENTED_EDGE ( 'NONE', *, *, #75, .F. ) ;
#222 = APPLICATION_CONTEXT ( 'automotive_design' ) ;
#223 =( NAMED_UNIT ( * ) PLANE_ANGLE_UNIT ( ) SI_UNIT ( $, .RADIAN. ) );
#224 = CARTESIAN_POINT ( 'NONE',  ( 0.7300904007046186139, 0.4534168242848091723, 0.6262782151626170579 ) ) ;
#225 = FILL_AREA_STYLE_COLOUR ( '', #15 ) ;
#226 = DIRECTION ( 'NONE',  ( 0.000000000000000000, 0.000000000000000000, 1.000000000000000000 ) ) ;
#227 = DIRECTION ( 'NONE',  ( 0.000000000000000000, 0.000000000000000000, 1.000000000000000000 ) ) ;
#228 = AXIS2_PLACEMENT_3D ( 'NONE', #263, #205, #13 ) ;
#229 = VERTEX_POINT ( 'NONE', #345 ) ;
#230 = ADVANCED_FACE ( 'NONE', ( #178, #77 ), #292, .F. ) ;
#231 = DIRECTION ( 'NONE',  ( 0.000000000000000000, -1.000000000000000000, 0.000000000000000000 ) ) ;
#232 = DIRECTION ( 'NONE',  ( 0.000000000000000000, 1.000000000000000000, 0.000000000000000000 ) ) ;
#233 = DIRECTION ( 'NONE',  ( -0.000000000000000000, 1.000000000000000000, -0.000000000000000000 ) ) ;
#234 = AXIS2_PLACEMENT_3D ( 'NONE', #304, #319, #5 ) ;
#235 = AXIS2_PLACEMENT_3D ( 'NONE', #143, #233, #31 ) ;
#236 = DIRECTION ( 'NONE',  ( 0.000000000000000000, 0.000000000000000000, 1.000000000000000000 ) ) ;
#237 = FACE_OUTER_BOUND ( 'NONE', #74, .T. ) ;
#238 = DIRECTION ( 'NONE',  ( -0.000000000000000000, 1.000000000000000000, -0.000000000000000000 ) ) ;
#239 = VERTEX_POINT ( 'NONE', #212 ) ;
#240 = CIRCLE ( 'NONE', #344, 0.3810000000000001719 ) ;
#241 = EDGE_CURVE ( 'NONE', #306, #306, #288, .T. ) ;
#242 =( LENGTH_UNIT ( ) NAMED_UNIT ( * ) SI_UNIT ( $, .METRE. ) );
#243 = CLOSED_SHELL ( 'NONE', ( #230, #363, #257, #201, #299 ) ) ;
#244 = AXIS2_PLACEMENT_3D ( 'NONE', #56, #199, #29 ) ;
#245 = FILL_AREA_STYLE ('',( #225 ) ) ;
#246 = DIRECTION ( 'NONE',  ( 0.000000000000000000, 0.000000000000000000, 1.000000000000000000 ) ) ;
#247 = PRODUCT ( 'CTSC-002862', 'CTSC-002862', '', ( #264 ) ) ;
#248 = ORIENTED_EDGE ( 'NONE', *, *, #268, .T. ) ;
#249 = EDGE_LOOP ( 'NONE', ( #276 ) ) ;
#250 = ORIENTED_EDGE ( 'NONE', *, *, #349, .F. ) ;
#251 = CARTESIAN_POINT ( 'NONE',  ( 0.7300904007046186139, 0.4094168242848090777, 0.6262782151626170579 ) ) ;
#252 = DIRECTION ( 'NONE',  ( -0.000000000000000000, 1.000000000000000000, -0.000000000000000000 ) ) ;
#253 = ORIENTED_EDGE ( 'NONE', *, *, #64, .F. ) ;
#254 = PRESENTATION_STYLE_ASSIGNMENT (( #158 ) ) ;
#255 = FACE_BOUND ( 'NONE', #46, .T. ) ;
#256 =( NAMED_UNIT ( * ) PLANE_ANGLE_UNIT ( ) SI_UNIT ( $, .RADIAN. ) );
#257 = ADVANCED_FACE ( 'NONE', ( #237, #53 ), #28, .T. ) ;
#258 = FILL_AREA_STYLE ('',( #121 ) ) ;
#259 = DIRECTION ( 'NONE',  ( -0.000000000000000000, 1.000000000000000000, -0.000000000000000000 ) ) ;
#260 = CARTESIAN_POINT ( 'NONE',  ( 0.7300904007046185029, 0.9224168242848093113, 0.6262782151626169469 ) ) ;
#261 = CIRCLE ( 'NONE', #107, 0.5860000000000002984 ) ;
#262 = CONICAL_SURFACE ( 'NONE', #317, 0.3810000000000001164, 0.7853981633974503884 ) ;
#263 = CARTESIAN_POINT ( 'NONE',  ( 0.7300904007046186139, 0.4094168242848090777, 0.6262782151626170579 ) ) ;
#264 = PRODUCT_CONTEXT ( 'NONE', #222, 'mechanical' ) ;
#265 = DIRECTION ( 'NONE',  ( 0.000000000000000000, -1.000000000000000000, 0.000000000000000000 ) ) ;
#266 = DIRECTION ( 'NONE',  ( 1.000000000000000000, 0.000000000000000000, 0.000000000000000000 ) ) ;
#267 = CIRCLE ( 'NONE', #106, 0.3810000000000001164 ) ;
#268 = EDGE_CURVE ( 'NONE', #239, #239, #334, .T. ) ;
#269 =( NAMED_UNIT ( * ) SI_UNIT ( $, .STERADIAN. ) SOLID_ANGLE_UNIT ( ) );
#270 = CARTESIAN_POINT ( 'NONE',  ( 0.7300904007046186139, 0.5034168242848091612, 0.6262782151626169469 ) ) ;
#271 = APPLICATION_CONTEXT ( 'automotive_design' ) ;
#272 = DIRECTION ( 'NONE',  ( -0.000000000000000000, 1.000000000000000000, 0.000000000000000000 ) ) ;
#273 = EDGE_LOOP ( 'NONE', ( #216 ) ) ;
#274 = PRODUCT_DEFINITION_SHAPE ( 'NONE', 'NONE',  #112 ) ;
#275 = ORIENTED_EDGE ( 'NONE', *, *, #241, .T. ) ;
#276 = ORIENTED_EDGE ( 'NONE', *, *, #268, .F. ) ;
#277 = SURFACE_STYLE_USAGE ( .BOTH. , #331 ) ;
#278 = ADVANCED_FACE ( 'NONE', ( #91, #208 ), #211, .F. ) ;
#279 = MANIFOLD_SOLID_BREP ( 'MACH-004510-2-solid1', #61 ) ;
#280 = CARTESIAN_POINT ( 'NONE',  ( 0.7300904007046186139, 0.5034168242848091612, 0.6262782151626169469 ) ) ;
#281 = EDGE_LOOP ( 'NONE', ( #44 ) ) ;
#282 = SURFACE_STYLE_FILL_AREA ( #193 ) ;
#283 = DIRECTION ( 'NONE',  ( -0.000000000000000000, 1.000000000000000000, -0.000000000000000000 ) ) ;
#284 = DIRECTION ( 'NONE',  ( -0.000000000000000000, 1.000000000000000000, -0.000000000000000000 ) ) ;
#285 =( CONVERSION_BASED_UNIT ( 'INCH', #76 ) LENGTH_UNIT ( ) NAMED_UNIT ( #16 ) );
#286 = ADVANCED_FACE ( 'NONE', ( #10, #341 ), #323, .F. ) ;
#287 = FACE_OUTER_BOUND ( 'NONE', #103, .T. ) ;
#288 = CIRCLE ( 'NONE', #25, 0.5860000000000000764 ) ;
#289 = PRESENTATION_STYLE_ASSIGNMENT (( #200 ) ) ;
#290 = UNCERTAINTY_MEASURE_WITH_UNIT (LENGTH_MEASURE( 1.000000000000000082E-05 ), #327, 'distance_accuracy_value', 'NONE');
#291 = VERTEX_POINT ( 'NONE', #204 ) ;
#292 = CYLINDRICAL_SURFACE ( 'NONE', #303, 0.3810000000000002274 ) ;
#293 =( LENGTH_UNIT ( ) NAMED_UNIT ( * ) SI_UNIT ( $, .METRE. ) );
#294 = CARTESIAN_POINT ( 'NONE',  ( 0.7300904007046186139, 0.5034168242848091612, 0.6262782151626170579 ) ) ;
#295 = AXIS2_PLACEMENT_3D ( 'NONE', #160, #272, #246 ) ;
#296 = CARTESIAN_POINT ( 'NONE',  ( 0.7300904007046186139, 0.8784168242848093833, 1.006278215162617284 ) ) ;
#297 = CARTESIAN_POINT ( 'NONE',  ( 0.7300904007046186139, 0.5034168242848091612, 0.2452782151626169138 ) ) ;
#298 =( NAMED_UNIT ( * ) SI_UNIT ( $, .STERADIAN. ) SOLID_ANGLE_UNIT ( ) );
#299 = ADVANCED_FACE ( 'NONE', ( #145, #116 ), #58, .F. ) ;
#300 = DIMENSIONAL_EXPONENTS ( 1.000000000000000000, 0.000000000000000000, 0.000000000000000000, 0.000000000000000000, 0.000000000000000000, 0.000000000000000000, 0.000000000000000000 ) ;
#301 =( NAMED_UNIT ( * ) PLANE_ANGLE_UNIT ( ) SI_UNIT ( $, .RADIAN. ) );
#302 = CLOSED_SHELL ( 'NONE', ( #286, #154, #18, #278 ) ) ;
#303 = AXIS2_PLACEMENT_3D ( 'NONE', #194, #259, #313 ) ;
#304 = CARTESIAN_POINT ( 'NONE',  ( 0.7300904007046185029, 0.8784168242848092722, 0.6262782151626169469 ) ) ;
#305 = DIMENSIONAL_EXPONENTS ( 1.000000000000000000, 0.000000000000000000, 0.000000000000000000, 0.000000000000000000, 0.000000000000000000, 0.000000000000000000, 0.000000000000000000 ) ;
#306 = VERTEX_POINT ( 'NONE', #181 ) ;
#307 = PLANE ( 'NONE',  #295 ) ;
#308 = UNCERTAINTY_MEASURE_WITH_UNIT (LENGTH_MEASURE( 1.000000000000000082E-05 ), #285, 'distance_accuracy_value', 'NONE');
#309 = EDGE_LOOP ( 'NONE', ( #275 ) ) ;
#310 = ORIENTED_EDGE ( 'NONE', *, *, #84, .T. ) ;
#311 = EDGE_LOOP ( 'NONE', ( #71 ) ) ;
#312 = AXIS2_PLACEMENT_3D ( 'NONE', #11, #40, #153 ) ;
#313 = DIRECTION ( 'NONE',  ( 0.000000000000000000, 0.000000000000000000, 1.000000000000000000 ) ) ;
#314 = DIRECTION ( 'NONE',  ( 0.000000000000000000, 0.000000000000000000, 1.000000000000000000 ) ) ;
#315 = CARTESIAN_POINT ( 'NONE',  ( 0.7300904007046185029, 0.9224168242848093113, 0.6262782151626169469 ) ) ;
#316 = CIRCLE ( 'NONE', #364, 0.3810000000000001719 ) ;
#317 = AXIS2_PLACEMENT_3D ( 'NONE', #224, #232, #37 ) ;
#318 = DIRECTION ( 'NONE',  ( -0.000000000000000000, 1.000000000000000000, 0.000000000000000000 ) ) ;
#319 = DIRECTION ( 'NONE',  ( -0.000000000000000000, 1.000000000000000000, -0.000000000000000000 ) ) ;
#320 = VERTEX_POINT ( 'NONE', #90 ) ;
#321 = FACE_BOUND ( 'NONE', #1, .T. ) ;
#322 = CARTESIAN_POINT ( 'NONE',  ( 0.000000000000000000, 0.000000000000000000, 0.000000000000000000 ) ) ;
#323 = PLANE ( 'NONE',  #129 ) ;
#324 = ADVANCED_FACE ( 'NONE', ( #9, #287 ), #89, .F. ) ;
#325 = VERTEX_POINT ( 'NONE', #14 ) ;
#326 = CARTESIAN_POINT ( 'NONE',  ( 0.7300904007046185029, 0.9724168242848093557, 0.6262782151626169469 ) ) ;
#327 =( CONVERSION_BASED_UNIT ( 'INCH', #63 ) LENGTH_UNIT ( ) NAMED_UNIT ( #300 ) );
#328 = AXIS2_PLACEMENT_3D ( 'NONE', #176, #284, #226 ) ;
#329 = FACE_OUTER_BOUND ( 'NONE', #26, .T. ) ;
#330 = FACE_OUTER_BOUND ( 'NONE', #161, .T. ) ;
#331 = SURFACE_SIDE_STYLE ('',( #282 ) ) ;
#332 = EDGE_LOOP ( 'NONE', ( #248 ) ) ;
#333 = ORIENTED_EDGE ( 'NONE', *, *, #140, .F. ) ;
#334 = CIRCLE ( 'NONE', #228, 0.5860000000000002984 ) ;
#335 = ADVANCED_FACE ( 'NONE', ( #114, #79 ), #198, .F. ) ;
#336 = EDGE_LOOP ( 'NONE', ( #333 ) ) ;
#337 = DIRECTION ( 'NONE',  ( 0.000000000000000000, 0.000000000000000000, -1.000000000000000000 ) ) ;
#338 = EDGE_LOOP ( 'NONE', ( #168 ) ) ;
#339 = DIRECTION ( 'NONE',  ( -0.000000000000000000, 1.000000000000000000, -0.000000000000000000 ) ) ;
#340 = CARTESIAN_POINT ( 'NONE',  ( 0.7300904007046185029, 0.8784168242848092722, 0.04027821516261676643 ) ) ;
#341 = FACE_OUTER_BOUND ( 'NONE', #163, .T. ) ;
#342 = DIRECTION ( 'NONE',  ( 0.000000000000000000, 0.000000000000000000, 1.000000000000000000 ) ) ;
#343 = EDGE_CURVE ( 'NONE', #183, #183, #261, .T. ) ;
#344 = AXIS2_PLACEMENT_3D ( 'NONE', #78, #110, #195 ) ;
#345 = CARTESIAN_POINT ( 'NONE',  ( 0.7300904007046185029, 0.9724168242848093557, 1.212278215162617023 ) ) ;
#346 = CARTESIAN_POINT ( 'NONE',  ( 0.7300904007046186139, 0.4534168242848091723, 0.2452782151626169138 ) ) ;
#347 = CARTESIAN_POINT ( 'NONE',  ( 0.7300904007046185029, 2.416546916269040945, 0.6262782151626169469 ) ) ;
#348 = AXIS2_PLACEMENT_3D ( 'NONE', #27, #159, #81 ) ;
#349 = EDGE_CURVE ( 'NONE', #17, #17, #365, .T. ) ;
#350 = DIRECTION ( 'NONE',  ( 0.000000000000000000, -0.000000000000000000, -1.000000000000000000 ) ) ;
#351 = CARTESIAN_POINT ( 'NONE',  ( 0.7300904007046185029, 0.8784168242848092722, 0.6262782151626169469 ) ) ;
#352 = UNCERTAINTY_MEASURE_WITH_UNIT (LENGTH_MEASURE( 1.000000000000000082E-05 ), #126, 'distance_accuracy_value', 'NONE');
#353 = DIRECTION ( 'NONE',  ( 0.000000000000000000, -0.000000000000000000, -1.000000000000000000 ) ) ;
#354 = VERTEX_POINT ( 'NONE', #155 ) ;
#355 = CARTESIAN_POINT ( 'NONE',  ( 0.7300904007046186139, 3.433032461604126340, 0.6262782151626169469 ) ) ;
#356 = AXIS2_PLACEMENT_3D ( 'NONE', #270, #95, #342 ) ;
#357 = VERTEX_POINT ( 'NONE', #296 ) ;
#358 = DIRECTION ( 'NONE',  ( 0.000000000000000000, -1.000000000000000000, 0.000000000000000000 ) ) ;
#359 = AXIS2_PLACEMENT_3D ( 'NONE', #297, #50, #353 ) ;
#360 = SURFACE_SIDE_STYLE ('',( #67 ) ) ;
#361 = EDGE_LOOP ( 'NONE', ( #250 ) ) ;
#362 = ORIENTED_EDGE ( 'NONE', *, *, #32, .T. ) ;
#363 = ADVANCED_FACE ( 'NONE', ( #255, #6 ), #147, .F. ) ;
#364 = AXIS2_PLACEMENT_3D ( 'NONE', #315, #213, #69 ) ;
#365 = CIRCLE ( 'NONE', #235, 0.5910000000000003029 ) ;
ENDSEC;
END-ISO-10303-21;
